H.I.M. Gone with the sin

Oficiální web: http://www.heartagram.com/
VERSE 1(Spoken):
Ami                G  
i love your skin , ohoh so wide
i love your touch,cold as ice
and i love everything to you cry
i just love the wind you loose and the light

CHORUS
Am     G       F          Am          C C/B Ami
Wohohohoho my baby how beautiful you are
Am     G        F           Am            C C/B Ami
Wohohohoho my darlin'completely thought apart
Am     G       F         Am                  C C/B Ami
Gone with the sin my baby how beautiful you are
Am     G          F     Am       F
So gone with the sin my darlin'

VERSE 2:
I have thought the spin in your eyes
I wished up your lips warm spitered as wind
And i graped for your sound
sunday shiverd down my spind
I just love the way your running out of light

CHORUS


Solo:
e-------------------------------------------------------------------
H-----17-15----------------15--------------------------17-15----15--
G--14-------17-16----16-17----17-16-14-12-14--------14-------17-----
D-----------------17-------------------------14--14-----------------
A-------------------------------------------------------------------
E-------------------------------------------------------------------

e-------------------------------------------------------------------
H---------------17-15-----------------------------------------------
G--16-17-19-19--------17-16-14-12-----------------------------------
D----------------------------------15-14-12-------------------------
A-------------------------------------------15-14-12--12-14-15-14---
E-------------------------------------------------------------------

e-------------------------------------------------------------------
H-------------------------------------------------------------------
G-------------------------------------------------------------------
D-----------14-12---------------------------------------------------
A--14-15-17-------15-14-12-------------------12-14-15-14----14-15-15
E--------------------------15-13-12-10--8--7-------------15---------


CHORUS (1 Octave higher)

Další tabulatury od H.I.M.

Endless DarkH.I.M.tab
© 2013 littlezakk CMS littlezakk